A B C D E F G H I J K L M N O P Q R S T U V W X Y Z 0-9

3 Doors Down - Here Without You

        Capo on 1

Intro: 
e|--------------------------------------------------------------| 
B|-------1-----0-----0---1--------------------------------0-----| 
G|-----2---2-----2-----2---2-------------2------------0-----0---| 
D|---2-------2-----2---------2---------3---3-------0----0-----0-| 
A|-0---------------------------0-----3-------3--2---------------| 
E|---------------------------------1------------3---------------| 
 
e|------------------------------------------------------------|
B|-------1-----0-----0---1--------------0-----1-----0-----1/3-| 
G|-----2---2-----2-----2---2----------0----0-----0-----0------| 
D|---2-------2-----2---------2------0-------------------------| 
A|-0---------------------------0------------------------------| 
E|--------------------------------3---------------------------| 
 
          Am
A hundred days have made me older, 
          G                                Am F G
Since the last time that I saw your pretty face, 
 
           Am
A thousand lies have made me colder, 
    G                                     Am F G
And I don’t think I can look at this the same, 
 Am                     G
And all the miles that separate, 
 Am                          F                G
They disappear now when I’m dreamin’ of your face. 
 
 C                          G                           Am         
I'm here without you baby, but your still on my lonely mind 
                         F              G                C
I think about you baby, and I dream about you all the time 
                           G                            Am
I’m here without you baby, but your still with me in my dreams 
 F           G                Am F G
And tonight it’s only you and me 
 
    Am                                G                      
The miles just keep on rolling as the people leave their way 
      Am    F G
to say hello, 
                 Am                       G                  
I’ve heard this life is overrated, but I hope it gets better 
           Am    F G
as we go, woah, yeah 
 
 C                          G                          Am        
I'm here without you baby, but your still on my lonely mind 
                         F                    G           C
I think about you baby, and I dream about you all the time 
                            G                            Am
I’m here without you baby, but your still with me in my dreams 
  F                    G            Am
And tonight girl it’s only you and me 
 
 Am                  C
Everything I know, and anywhere I go  
 G                         F             G
it gets hard but it won’t take away my love 
 Am                           C                       G
And when the last one falls, when it’s all said and done 
                          F                        C G Am F G
it get hard but it won’t take away my love, oh, oh, yeah. 
 
 C                          G                           Am
I'm here without you baby, but your still on my lonely mind 
                          F                  G           C
I think about you baby, and I dream about you all the time 
                            G                            Am
I’m here without you baby, but your still with me in my dreams 
    F            G             C     G       Am  F     G        Am
And tonight it’s only you and me, yeah, oh yeah, oh oh whoa oh, no…