Воскресение - Мне говорили

        Chords :
  Bm A2 G
e|---------|
B|---------|
G|-4--4--4-|
D|-4--2--0-|
A|-2--0----|
E|-------3-|
 
 Em7 D6 C#m7 Bm7 A Em Em Bm7 Bm7 G6 A Bm7 Bm7 G6 A Bm7
E|-7--7---4----2---------------------------------------|
B|-8--7---5----3--2--0---------------------------------|
G|-7--7---4----2--2--0-------------4-------------------|
D|-9--7---6----4--2--2-------------2-------------------|
A|-7--5---4----2--0--2---------------------------------|
E|-------------------0-------------3-------------------|

Verse 1:
 Bm   A2   G     A2
Мне говорили громко и внятно:
 Bm       A2   G   A2
"Жизнь - это пятна, это понятно"
Я говорил:"Это мне ясно.
Где было чисто, там станет грязно."
И в то же время кошмаром страшным,
Бредом похмельным, холодным потом
Что-то ушло и осталось вчерашним.
Новый сон виден. Где-то он, вот он!

Proigr : Bm A2 G A2 Bm A2 G A2

Verse 2:
Мне говорили разные люди:
"Жизнь - это полосы разного цвета".
И если мы не были, значит мы будем
Так же, ка будет зима после лета.
Мне говорили неоднократно
И между прочим и между делом.
Мне говорили:" Жизнь - это пятна,
Черные пятна на чистом и белом."
 Bm
А я говорил:"Очень приятно".

Proigr 2: Em7 D6 C#m7 Bm7 A Em Em Bm7 Bm7 G6 A Bm7 Bm7 G6 A Bm7

Outro : xx
Em7     D6      C#m7    Bm7
За день устав от строительства нового,
A     Em     Em     Bm7
Город уснул по домам и квартирам.
Bm7     G6     A     Bm7
Только что на день его и хватило,
Bm7  G6     A      Bm7
Нового ночью словно не стало бы

        

Популярные песни исполнителя: