Чайф - Внеплановый концерт

        Intro:
C(VIII) Am F(VIII)  G(X) 
-8-8-8-8-50-8--8----10-10|
-8-8-8-8-50-10-10---12-12|
-------------------------|
-------------------------|
-------------------------|
-------------------------|

Затем идет соло 1:
----------------------|
-----5----------------|
-5/7---7-5---5-4-5/7-5|
-----------7----------|
----------------------|
----------------------|  

C        Am  F         G
А ты сказала, что собиралась
C        Am  F         G
С одним знакомым пацаном в кино.
C        Am  F         G
Я предложил тебе другой вариант,
C        Am  F         G
Ты согласилась, тебе было все равно.

Припев:
    C                   F       G
    Это внеплановый концерт на кухне,
    C                   F      G
    Это подзарядка наших батарей,
    C                   F       G
    Это способ не сойти с ума и не опухнуть,
    C                   F       G
    Чтобы нам с тобой было веселей-ей-ей.

Соло 1:
----------------------|
-----5----------------|
-5/7---7-5---5-4-5/7-5|
-----------7----------|
----------------------|
----------------------|  

C        Am  F         G
Ты опасалась соратников по парте,
C        Am  F         G
И они были бдительны, как никогда.
C        Am  F         G
Я поклялся, что об этом никто не узнает.
C        Am  F         G
Ты немного поломалась, но не больше чем всегда.

Припев:
    C                   F       G
    Это внеплановый концерт на кухне,
    C                   F      G
    Это подзарядка наших батарей,
    C                   F       G
    Это способ не сойти с ума и не опухнуть,
    C                   F       G
    Чтобы нам с тобой было веселей-ей-ей.

После этого припева идет соло 2:
----------------------|
----------------------|
-5-5h7-5---5-----5---7|
---------7---3-3---5--|
----------------------|
----------------------|

C        Am  F         G
А ты пришла по делам своей фирмы.
C        Am  F         G
Я не ставил чая, так как не было воды.
C        Am  F         G
По телевизору транслировали речь президента.
C        Am  F         G
Я нажал на кнопку и перешел на ты.

Припев:
    C                   F       G
    Это внеплановый концерт на кухне,
    C                   F      G
    Это подзарядка наших батарей,
    C                   F       G
    Это способ не сойти с ума и не опухнуть,
    C                   F       G
    Чтобы нам с тобой было веселей-ей-ей.

Соло 1:
----------------------|
-----5----------------|
-5/7---7-5---5-4-5/7-5|
-----------7----------|
----------------------|
----------------------|  

Затем следует бас-соло, под которое поется 4-й куплет.
Эта, собственно, бас-партия играется на протяжении всей песни:
e-----------------------------
B-----------------------------
G-----------------------------
D---2-2---------------------2-
A-3-----3-------3-3---5-5-3---
E---------5-5-1-----3---------

C        Am  F         G
А иногда бывает, мы умираем.
C        Am  F         G
Нас выжимают, и сил нет терпеть.
C        Am  F         G
А мы с тобой идем друг к другу, а Беломор по кругу.
C        Am  F         G
А мы берем гитару и начинаем петь.

Припев:
    C                   F       G
    Это внеплановый концерт на кухне,
    C                   F      G
    Это подзарядка наших батарей,
    C                   F       G
    Это способ не сойти с ума и не опухнуть,
    C                   F       G
    Чтобы нам с тобой было веселей-ей-ей.

Соло 1:
----------------------|
-----5----------------|
-5/7---7-5---5-4-5/7-5|
-----------7----------|
----------------------|
----------------------|  
        

Популярные песни исполнителя: