Чайф - Бичи (Гимн солнцу)

        E    E     A    E     A    B7   E
Поднимайте знамёна бичи, горячи уже солнца лучи.
     A       B7     E      A
Много нас, словно рать Куликовской сечи.
       E       B7    E
Так поднимайте же знамёна, бичи !

1st. Guitar
E|--------|
B|--------|
G|--------| 8 раз
D|--------|
A|-2-2-4-4|
E|-0-0-0-0|

2nd. Guitar (Solo)
E|-------|-------|-----5-5|--------|-----5-5|--------|-----5-5-|
B|-------|-------|-----8-5|--------|-----8-5|--------|-----8-5-|
G|-------|-------|-----6-6|--------|-----6-6|--------|-----6-6-|
D|-------|-------|-----5-5|--------|-----5-5|--------|-----5-5-|
A|-------|-------|-----7-7|--------|-----7-7|--------|-----7-7-|
E|-------|-------|--------|--------|--------|--------|---------|

1st. Guitar
E|--------|--------|--------|---------|
B|--------|--------|--------|---------|
G|--------|--------|--------|---------|
D|--------|--------|--------|---------|
A|-2-2-4-4|-2-2-4-4|-2-2-4-4|-2-2-4-4-|
E|-0-0-0-0|-0-0-0-0|-0-0-0-0|-0-0-0-0-|
           Как весною...
2nd. Guitar
E|--------|--------|----------|
B|-2-2-2-2|-2-2-2-2|-2-2------|
G|-4-4-4-4|-4-4-4-4|-4-4-0----|
D|--------|--------|---------2|
A|--------|--------|----------|
E|--------|--------|----------|

 E     A     E     E     A     B7     E
E|-------|-------|--------|--------|--------|--------|---------|
B|-------|-------|--------|--------|--------|--------|---------|
G|-------|-------|--------|--------|--------|--------|---------|
D|-------|2-2-4-4|--------|--------|-2-2-4-4|-1-1-4-4|---------|
A|2-2-4-4|0-0-0-0|-2-2-4-4|-2-2-4-4|-0-0-0-0|-2-2-2-2|-2-2-4-4-|
E|0-0-0-0|-------|-0-0-0-0|-0-0-0-0|--------|--------|-0-0-0-0-|
...весною на пашне грачи       всюду наши  собратья бичи

E     A     B7     E     A      E      B7
-------|-------|--------|--------|---------|---------|---------|
-------|-------|--------|--------|---------|---------|---------|
-------|-------|--------|--------|---------|---------|---------|
-------|2-2-4-4|-1-1-4-4|--------|-2-2-4--4|---------|-1-1-4-4-|
2-2-4-4|0-0-0-0|-2-2-2-2|-2-2-4-4|-0-0-0--0|-2-2-4--2|-2-2-2-2-|
0-0-0-0|-------|--------|-0-0-0-0|---------|-0-0-0--0|---------|
светит солнце не надо сидеть у печи так поднимайте же знамёна
                                        бичи
 E
E|-----------|
B|-----------|
G|-----------|
D|-----------|
A|-2-2-4-4-2-|
E|-0-0-0-0-0-|

И не правы доки врачи, что мол разносчики заразы бичи.
Сдадим, если надо мы им, анализ мочи.
Захлебнутся в ней, больничные хрычи!

Наше счастье как пламя свечи, мы правы кричи не кричи.
Доносят на нас у-у пенсионные сычи.
Ещё сочтёмся у-у стукачи!

1st. Guitar
 E
E|----------|
B|----------|
G|----------|
D|----------| - 8 раз.
A|-2-2-4--4-|
E|-0-0-0--0-|

2nd. Guitar (Solo)
  E
E|----------------------------|
B|--2-2-2-2-2-2-2-2-2-2-------|
G|--4-4-4-4-4-4-4-4-4-4-0-----|
D|--------------------------2-| - 2 раза.
A|----------------------------|
E|----------------------------|

Если надо то сядь посучи, вот такие уж мы ловкачи.
Зато никто не стоит над душой не ворчит.
Завидуют нам, мужья - рогачи!

 E      A      E      E
E|---------|---------|---------|----------|
B|---------|---------|---------|----------|
G|---------|---------|---------|----------|
D|---------|-2-2-4--4|---------|----------| - 4 раза.
A|-2-2-4--4|-0-0-0--0|-2-2-4--4|-2-2-4--4-|
E|-0-0-0--0|---------|-0-0-0--0|-0-0-0--0-|
Поднимайте  знамёна  бичи!

Coda:
1st. Guitar
E|--------|
B|--------|
G|--------| 8 раз
D|--------|
A|-2-2-4-4|
E|-0-0-0-0|

2nd. Guitar
E|-------|-------|-----5-5|--------|-----5-5|--------|-----5-5-|
B|-------|-------|-----8-5|--------|-----8-5|--------|-----8-5-|
G|-------|-------|-----6-6|--------|-----6-6|--------|-----6-6-|
D|-------|-------|-----5-5|--------|-----5-5|--------|-----5-5-|
A|-------|-------|-----7-7|--------|-----7-7|--------|-----7-7-|
E|-------|-------|--------|--------|--------|--------|---------|

2nd. Guitar
E|-----|-----------|-----|-----------|-----|-----------|-------|
B|b8r--|-----------|b8r--|-----------|b8r--|-----------|-b8r-5-|
G|----9|----7-----7|----9|----7-----7|----9|----7-----7|-------|
D|-----|7h9---7h9--|-----|7h9---7h9--|-----|7h9---7h9--|-------|
A|-----|-----------|-----|-----------|-----|-----------|-------|
E|-----|-----------|-----|-----------|-----|-----------|-------|

2nd. Guitar
E|--------|--------|----------|
B|-2-2-2-2|-2-2-2-2|-2-2------|
G|-4-4-4-4|-4-4-4-4|-4-4-0----|
D|--------|--------|---------2|
A|--------|--------|----------|
E|--------|--------|----------|
        

Популярные песни исполнителя: